No Daubt - Don't Speak


        

Verse

        Cm         Gm            Fm
        You and me we used to be together
        Bb       Gm       Fm     Bb
        Everyday together always
        Cm       Gm           Fm         Bb
        I really feel that I'm losing my best friend
        Gm                   Cm          Fm      Bb
        I can't believe this could be the end
        Cm           Gm     Fm           Bb
        It looks as though you're letting go
        Eb                   Bb               C
        And if it's real well I don't want to know
      

Chorus

        Fm             Bbm                    Eb
        Don't speak, I know just what you're saying
        C              Bbm
        So please stop explaining
        C                      Fm  Bbm  C
        Don't tell me cause it hurts
        
        Don't speak, I know what you're thinking
        I don't need your reasons
        Don't tell me cause it hurts
      

Verse

        Cm                    Gm          Fm
        Our memories... Well, they can be inviting
        Fm           Bb            Gm     Fm     Bb
        But some are all together mighty frightening
        Cm     Gm    Fm            Bb
        As we die, both you and I
        Eb                 Bb             C
        With my head in my hands I sit and cry
      

Chorus

        Don't speak, I know just what you're saying
        So please stop explaining
        Don't tell me cause it hurts (no, no, no)
        Don't speak, I know what you're thinking
        I don't need your reasons
        C                      Fm  Ebm  Eb
        Don't tell me cause it hurts
      

Verse

        Db        Ab             B     Gb              A
        It's all ending I gotta stop pretending who we are...
        (Cm Gm Fm Bbm)3* Gm Cm Fm
        Cm       Bb Fm           Bb       Fm  Bb 
        You and me I can see us dying... are we?
      
        Solo:

        Cm            Gm               Fm                  A#
        E|-----------3------------------|-------------------------------|
        B|-----4--6-----6~-3------------|-----4----6/8--6----8~---------|
        G|--5-----------------3---------|--5----------------------------|
        D|------------------------5--6~-|-------------------------------|
        A|------------------------------|-------------------------------|
        E|------------------------------|-------------------------------|

        Cm            Gm                Fm               A#
        E|-----------3------------------|------3--4--3--4--6----4p3-----|
        B|-----4--6-----6~-3------------|----4-----------------------6~-|
        G|--5-----------------3---------|--5----------------------------|
        D|------------------------5--6~-|-------------------------------|
        A|------------------------------|-------------------------------|
        E|------------------------------|-------------------------------|

        Cm             Gm                          Fm                 A#
        E|------8--10-11-10h11p10-p8-10----8-------|-----------------------------------|
        B|-----8------------------------11---8--11-|----8--------8-9-11--9h11p9---8~---|
        G|----8------------------------------------|-10---8--10------------------------|
        D|--10-------------------------------------|-----------------------------------|
        A|-----------------------------------------|-----------------------------------|
        E|-----------------------------------------|-----------------------------------|

        Cm                    Gm                Fm>let ring  (Fm)
        E|--------------------------------------|-----------------|
        B|--------------------------------------|-----------------|
        G|-----------------------------3h5--3-1-|-0h1p0~----------|
        D|-----------3--5-----3--5--6-----------|-----------------|
        A|--3-h5-h6--------6--------------------|-----------------|
        E|--------------------------------------|-----------------|