This is the Life


    EADGBE
C#m x46654
A   x02220
E   022100
G#m 466444  
?=185 Capo 4th Fret

Verse

C#m                    A
Oh the wind whistles down the cold dark street tonight
E                      G#m
And the people they were dancing to the music vibe
C#m
And the boys chase the girls with the curls in their hair
A
While the shocked too many just sit way over there
E                                           G#m
And the songs they get louder each one better than before
C#m
And you're singing the songs thinking this is the life
A
And you wake up in the morning and your head feels twice the size
E                                           G#m
where you gonna go, where you gonna go, where you gonna sleep tonight?
C#m
And you're singing the songs thinking this is the life
A
And you wake up in the morning and your head feels twice the size
E                                           G#m
where you gonna go, where you gonna go, where you gonna sleep tonight?
Where you gonna sleep tonight
C#m A  E  G#m
      
(post-chorus riff)
(repeat pattern throughout)
C#m A E G#m
So you’re heading down the road in your taxi for four
And you’re waiting outside Jimmy’s front door
But nobody’s in and nobody’s home till four
So you’re sitting there with nothing to do
Talking about Robert Ragger and his motley crew
And where you gonna go, and where you gonna sleep tonight?
And you're singing the songs thinking this is the life
And you wake up in the morning and your head feels twice the size 
Oh where you gonna go, where you gonna go, where you gonna sleep tonight? 
And you're singing the songs thinking this is the life
And you wake up in the morning and your head feels twice the size 
Where you gonna go, where you gonna go, where you gonna sleep tonight? 
Where you gonna sleep tonight 
(post-chorus riff)
(bridge riff)
And you're singing the songs thinking this is the life
And you wake up in the morning and your head feels twice the size 
Oh where you gonna go, where you gonna go, where you gonna sleep tonight? 
And you're singing the songs thinking this is the life
And you wake up in the morning and your head feels twice the size 
Where you gonna go, where you gonna go, where you gonna sleep tonight? 
Where you gonna sleep tonight?
(end on C#m)
e|-----0-------0-----------0-------0-0-0-0-0-2-4-0-0-2-4-2-0-----------------|
B|-2-4---2-2-4---2-2-2-2-4---2-2-4---------------------------4---------------|
G|---------------------------------------------------------------------------|
D|---------------------------------------------------------------------------|
A|---------------------------------------------------------------------------|
E|---------------------------------------------------------------------------|
Post-Chorus Riff (no capo)
e|-------------------------------------------------------|
B|----4-5----4-5------4-5----4-5-5555-7-9-5-5-79-7-54----|
G|--6-----6-6----6666-----6-6----------------------------|
D|-------------------------------------------------------|
A|-------------------------------------------------------|
E|-------------------------------------------------------|
Bridge Riff (no capo)
e|-----------------------------------------------------|
B|--9-9-7-7-5-5-4-4/9-9-7-7-5-5-4-4/9-9-7-7-5-5-4-4/9--|
G|-----------------------------------------------------|
D|-----------------------------------------------------|
A|-----------------------------------------------------|
E|-----------------------------------------------------|